always the last to know

(Intro riff & solo - chords scroll down)
submitted by Neil Parry.

TAB LEGEND
X = Mute
p = Pull Off
D = Down stroke
U = Up stroke
bu = bend up
bu = bend down


**Intro Riff (repeat as needed)**

   D D U          D U U D
E--5-X-5----------x-5-5-5----------
B--5-X-5--7-p-5---x-5-5-5--7-p-5---
G--6-X-6----------x-6---6----------
D--7-X-7----------x-7---7----------
A----------------------------------
E----------------------------------


**Solo repeat FIG 1 three times then play FIG 2 once**

FIG 1
E--------5---------5------------------------------
B----5--------5-----------------------------------
G------6--------6------4-bu-5-bd-4---4-bu-5-bd-4--
D-7--------7--------------------------------------
A-------------------------------------------------
E-------------------------------------------------

E--------5---------5------------------------------
B----5--------5-----------------------------------
G------6--------6------4-bu-5-bd-4---4-bu-5-bd-4--
D-7--------7--------------------------------------
A-------------------------------------------------
E-------------------------------------------------

E--------5---------5------------------------------
B----5--------5-----------------------------------
G------6--------6------4-bu-5-bd-4---4-bu-5-bd-4--
D-7--------7--------------------------------------
A-------------------------------------------------
E-------------------------------------------------

FIG 2
E-----------------------------------
B-----------------------------------
G-9-7--6-7-6-6-bu-7-----------------
D-------------------7---------------
A---------------------7-5-4---------
E-----------------------------------



A F#m D  A  F#m D  E

              A
So yore in love with some one else
             F#m
Some one who burns with in your soul
         D          E             A
And it looks like I am the Las to know
               A
I Hear you've never felt so alive
            F#m
So much desire beyond control
        D       E              A
and as usual I am the last to know

             A               D
The last to know how you're feeling
	     A             F#m
The last to know where you are
	     D             Bm
The last to know If you're happy
             C#m
Or if he treating you like I treated you
               D   E                  A
Or if he's  cruel   I'll be the last to Know

                A
We spent the summer out beyond the bay
                F#m
and you said these are such perfect days
            D                                        A
But if the bomb drops baby I want to be the last to know
                 A
But now you're living up behind the hill
                F#m
And though we share the same city and feel the sane sun\
             D          E                  A
When your winter come I'll be the last to know

             A              D
The last to know how you're feeling
            A              F#m
The last to know where you are
              D            Bm
The last to know If you're happy now
             C#m                                           D
Or if he pleading with you like I pleaded with you if you go
       E                         D                     
Don't let me be the last to Know
       E                          A
Don't let me be the last.... to know

   Bm            E                        D             A
Creations gone crazy ( that ain't so bad) TV's Gone Mad That ain't so crazy
 Bm                  D                E
Now you're the only sane thing that I have


             A              D
The last to know how you're feeling
            A              F#m
The last to know where you are
              D            Bm
The last to know If you're happy now
             C#m                                           D
Or if he cheating on you  like I cheated on you  ooh ooh ooh
       E                         D                     
You were the last to know
E                         D
you were the last to know
E                                     A
Don't let be the last.......... to know